ISO-10303-21;
HEADER;
FILE_DESCRIPTION (( 'STEP AP203' ),
    '1' );
FILE_NAME ('QB-CTZQWP-20-852-M.STEP',
    '2020-12-24T01:50:39',
    ( '' ),
    ( '' ),
    'SwSTEP 2.0',
    'SolidWorks 2020',
    '' );
FILE_SCHEMA (( 'CONFIG_CONTROL_DESIGN' ));
ENDSEC;

DATA;
#1 = CARTESIAN_POINT ( 'NONE',  ( 2.500000000000000888, 1.224646799147353256E-15, -10.00000000000000000 ) ) ;
#2 = ORIENTED_EDGE ( 'NONE', *, *, #184, .T. ) ;
#3 = DIRECTION ( 'NONE',  ( -1.000000000000000000, -0.000000000000000000, -0.000000000000000000 ) ) ;
#4 = PERSON_AND_ORGANIZATION ( #37, #155 ) ;
#5 = EDGE_LOOP ( 'NONE', ( #109, #15 ) ) ;
#6 = CARTESIAN_POINT ( 'NONE',  ( 0.000000000000000000, 0.000000000000000000, 0.000000000000000000 ) ) ;
#7 = ORIENTED_EDGE ( 'NONE', *, *, #273, .T. ) ;
#8 = ORIENTED_EDGE ( 'NONE', *, *, #77, .F. ) ;
#9 = PERSON_AND_ORGANIZATION_ROLE ( 'creator' ) ;
#10 = AXIS2_PLACEMENT_3D ( 'NONE', #154, #27, #103 ) ;
#11 = COORDINATED_UNIVERSAL_TIME_OFFSET ( 8, 0, .AHEAD. ) ;
#12 = EDGE_CURVE ( 'NONE', #140, #28, #156, .T. ) ;
#13 = CALENDAR_DATE ( 2020, 24, 12 ) ;
#14 = DIRECTION ( 'NONE',  ( -1.000000000000000000, -0.000000000000000000, -0.000000000000000000 ) ) ;
#15 = ORIENTED_EDGE ( 'NONE', *, *, #62, .F. ) ;
#16 = EDGE_CURVE ( 'NONE', #286, #233, #299, .T. ) ;
#17 = DIRECTION ( 'NONE',  ( 0.000000000000000000, 0.000000000000000000, 1.000000000000000000 ) ) ;
#18 =( GEOMETRIC_REPRESENTATION_CONTEXT ( 3 ) GLOBAL_UNCERTAINTY_ASSIGNED_CONTEXT ( ( #234 ) ) GLOBAL_UNIT_ASSIGNED_CONTEXT ( ( #229, #113, #25 ) ) REPRESENTATION_CONTEXT ( 'NONE', 'WORKASPACE' ) );
#19 = CARTESIAN_POINT ( 'NONE',  ( -3.000000000000000444, 0.000000000000000000, 10.00000000000000000 ) ) ;
#20 = APPROVAL_PERSON_ORGANIZATION ( #210, #112, #270 ) ;
#21 = DIRECTION ( 'NONE',  ( 0.000000000000000000, 0.000000000000000000, 1.000000000000000000 ) ) ;
#22 = DIRECTION ( 'NONE',  ( 0.000000000000000000, 0.000000000000000000, 1.000000000000000000 ) ) ;
#23 = DIRECTION ( 'NONE',  ( -1.000000000000000000, -0.000000000000000000, -0.000000000000000000 ) ) ;
#24 = APPROVAL ( #141, 'UNSPECIFIED' ) ;
#25 =( NAMED_UNIT ( * ) SI_UNIT ( $, .STERADIAN. ) SOLID_ANGLE_UNIT ( ) );
#26 = ORIENTED_EDGE ( 'NONE', *, *, #230, .T. ) ;
#27 = DIRECTION ( 'NONE',  ( -1.000000000000000000, -0.000000000000000000, -0.000000000000000000 ) ) ;
#28 = VERTEX_POINT ( 'NONE', #275 ) ;
#29 = CARTESIAN_POINT ( 'NONE',  ( -1.614212418857619014, 0.000000000000000000, 10.00000000000000000 ) ) ;
#30 = EDGE_LOOP ( 'NONE', ( #289, #212, #271, #81 ) ) ;
#31 = CIRCLE ( 'NONE', #116, 12.69999999999999929 ) ;
#32 = AXIS2_PLACEMENT_3D ( 'NONE', #44, #249, #21 ) ;
#33 = ORIENTED_EDGE ( 'NONE', *, *, #77, .T. ) ;
#34 = ORIENTED_EDGE ( 'NONE', *, *, #16, .T. ) ;
#35 = AXIS2_PLACEMENT_3D ( 'NONE', #195, #306, #40 ) ;
#36 = SHAPE_DEFINITION_REPRESENTATION ( #280, #320 ) ;
#37 = PERSON ( 'UNSPECIFIED', 'UNSPECIFIED', 'UNSPECIFIED', ('UNSPECIFIED'), ('UNSPECIFIED'), ('UNSPECIFIED') ) ;
#38 = CC_DESIGN_PERSON_AND_ORGANIZATION_ASSIGNMENT ( #4, #9, ( #94 ) ) ;
#39 = CARTESIAN_POINT ( 'NONE',  ( -1.614212418857619014, 1.224646799147353256E-15, -10.00000000000000000 ) ) ;
#40 = DIRECTION ( 'NONE',  ( 0.000000000000000000, 0.000000000000000000, 1.000000000000000000 ) ) ;
#41 = CYLINDRICAL_SURFACE ( 'NONE', #204, 10.00000000000000000 ) ;
#42 = CARTESIAN_POINT ( 'NONE',  ( -3.000000000000000000, 10.00000000000000000, 0.000000000000000000 ) ) ;
#43 = VECTOR ( 'NONE', #220, 1000.000000000000000 ) ;
#44 = CARTESIAN_POINT ( 'NONE',  ( -3.000000000000000000, 0.000000000000000000, 0.000000000000000000 ) ) ;
#45 = CYLINDRICAL_SURFACE ( 'NONE', #134, 12.69999999999999929 ) ;
#46 = CARTESIAN_POINT ( 'NONE',  ( -2.500000000000000444, 1.224646799147353256E-15, -10.00000000000000000 ) ) ;
#47 = CC_DESIGN_APPROVAL ( #75, ( #115 ) ) ;
#48 = AXIS2_PLACEMENT_3D ( 'NONE', #196, #118, #305 ) ;
#49 = DIRECTION ( 'NONE',  ( 0.000000000000000000, 0.000000000000000000, 1.000000000000000000 ) ) ;
#50 = CARTESIAN_POINT ( 'NONE',  ( -2.500000000000000444, 0.000000000000000000, 10.00000000000000000 ) ) ;
#51 = ORIENTED_EDGE ( 'NONE', *, *, #12, .T. ) ;
#52 = DIRECTION ( 'NONE',  ( 0.000000000000000000, 0.000000000000000000, 1.000000000000000000 ) ) ;
#53 = PERSON_AND_ORGANIZATION_ROLE ( 'classification_officer' ) ;
#54 = ORIENTED_EDGE ( 'NONE', *, *, #150, .F. ) ;
#55 = COORDINATED_UNIVERSAL_TIME_OFFSET ( 8, 0, .AHEAD. ) ;
#56 = ORIENTED_EDGE ( 'NONE', *, *, #327, .T. ) ;
#57 = APPLICATION_CONTEXT ( 'configuration controlled 3d designs of mechanical parts and assemblies' ) ;
#58 = VECTOR ( 'NONE', #23, 1000.000000000000000 ) ;
#59 = AXIS2_PLACEMENT_3D ( 'NONE', #274, #173, #151 ) ;
#60 = DATE_TIME_ROLE ( 'creation_date' ) ;
#61 = VERTEX_POINT ( 'NONE', #19 ) ;
#62 = EDGE_CURVE ( 'NONE', #291, #315, #193, .T. ) ;
#63 = SECURITY_CLASSIFICATION_LEVEL ( 'unclassified' ) ;
#64 = EDGE_CURVE ( 'NONE', #233, #286, #166, .T. ) ;
#65 = DIRECTION ( 'NONE',  ( 1.000000000000000000, 0.000000000000000000, 0.000000000000000000 ) ) ;
#66 = DIRECTION ( 'NONE',  ( -1.000000000000000000, -0.000000000000000000, -0.000000000000000000 ) ) ;
#67 = AXIS2_PLACEMENT_3D ( 'NONE', #157, #98, #178 ) ;
#68 = CC_DESIGN_PERSON_AND_ORGANIZATION_ASSIGNMENT ( #207, #319, ( #255 ) ) ;
#69 = DIRECTION ( 'NONE',  ( 0.000000000000000000, 0.000000000000000000, 1.000000000000000000 ) ) ;
#70 = CARTESIAN_POINT ( 'NONE',  ( -3.000000000000000000, 1.555301434917138433E-15, -12.69999999999999929 ) ) ;
#71 = ORIENTED_EDGE ( 'NONE', *, *, #99, .F. ) ;
#72 = CIRCLE ( 'NONE', #235, 10.00000000000000000 ) ;
#73 = PLANE ( 'NONE',  #217 ) ;
#74 = CC_DESIGN_APPROVAL ( #112, ( #94 ) ) ;
#75 = APPROVAL ( #290, 'UNSPECIFIED' ) ;
#76 = CARTESIAN_POINT ( 'NONE',  ( -2.500000000000000444, 0.000000000000000000, 0.000000000000000000 ) ) ;
#77 = EDGE_CURVE ( 'NONE', #268, #233, #123, .T. ) ;
#78 = DIRECTION ( 'NONE',  ( 1.000000000000000000, 0.000000000000000000, 0.000000000000000000 ) ) ;
#79 = ORIENTED_EDGE ( 'NONE', *, *, #169, .F. ) ;
#80 = CARTESIAN_POINT ( 'NONE',  ( 2.999999999999999112, 12.69999999999999929, 0.000000000000000000 ) ) ;
#81 = ORIENTED_EDGE ( 'NONE', *, *, #327, .F. ) ;
#82 = DIRECTION ( 'NONE',  ( 0.000000000000000000, 0.000000000000000000, 1.000000000000000000 ) ) ;
#83 = ORIENTED_EDGE ( 'NONE', *, *, #12, .F. ) ;
#84 = DIRECTION ( 'NONE',  ( 0.000000000000000000, 0.000000000000000000, 1.000000000000000000 ) ) ;
#85 = ORIENTED_EDGE ( 'NONE', *, *, #294, .F. ) ;
#86 = PERSON_AND_ORGANIZATION ( #37, #155 ) ;
#87 = ADVANCED_FACE ( 'NONE', ( #175 ), #279, .F. ) ;
#88 = ADVANCED_FACE ( 'NONE', ( #198 ), #41, .F. ) ;
#89 = CC_DESIGN_DATE_AND_TIME_ASSIGNMENT ( #194, #117, ( #269 ) ) ;
#90 = VECTOR ( 'NONE', #119, 1000.000000000000000 ) ;
#91 = CARTESIAN_POINT ( 'NONE',  ( -3.000000000000000000, 0.000000000000000000, 12.69999999999999929 ) ) ;
#92 = CARTESIAN_POINT ( 'NONE',  ( 2.500000000000000888, 0.000000000000000000, 0.000000000000000000 ) ) ;
#93 = CARTESIAN_POINT ( 'NONE',  ( 2.500000000000000888, 0.000000000000000000, 0.000000000000000000 ) ) ;
#94 = PRODUCT_DEFINITION_FORMATION_WITH_SPECIFIED_SOURCE ( 'ANY', '', #255, .NOT_KNOWN. ) ;
#95 = FACE_OUTER_BOUND ( 'NONE', #30, .T. ) ;
#96 = LOCAL_TIME ( 9, 50, 39.00000000000000000, #144 ) ;
#97 = LINE ( 'NONE', #251, #135 ) ;
#98 = DIRECTION ( 'NONE',  ( -1.000000000000000000, -0.000000000000000000, -0.000000000000000000 ) ) ;
#99 = EDGE_CURVE ( 'NONE', #291, #146, #97, .T. ) ;
#100 = AXIS2_PLACEMENT_3D ( 'NONE', #42, #65, #307 ) ;
#101 = DIRECTION ( 'NONE',  ( -1.000000000000000000, 0.000000000000000000, -0.000000000000000000 ) ) ;
#102 = EDGE_CURVE ( 'NONE', #132, #162, #177, .T. ) ;
#103 = DIRECTION ( 'NONE',  ( 0.000000000000000000, 0.000000000000000000, 1.000000000000000000 ) ) ;
#104 = ORIENTED_EDGE ( 'NONE', *, *, #218, .F. ) ;
#105 = DIRECTION ( 'NONE',  ( 0.000000000000000000, 0.000000000000000000, 1.000000000000000000 ) ) ;
#106 = APPLICATION_PROTOCOL_DEFINITION ( 'international standard', 'config_control_design', 1994, #57 ) ;
#107 = EDGE_LOOP ( 'NONE', ( #188, #265, #182, #324 ) ) ;
#108 = APPLICATION_PROTOCOL_DEFINITION ( 'international standard', 'config_control_design', 1994, #276 ) ;
#109 = ORIENTED_EDGE ( 'NONE', *, *, #241, .F. ) ;
#110 = CYLINDRICAL_SURFACE ( 'NONE', #248, 10.00000000000000000 ) ;
#111 = EDGE_LOOP ( 'NONE', ( #159, #321, #34, #8 ) ) ;
#112 = APPROVAL ( #167, 'UNSPECIFIED' ) ;
#113 =( NAMED_UNIT ( * ) PLANE_ANGLE_UNIT ( ) SI_UNIT ( $, .RADIAN. ) );
#114 = CC_DESIGN_APPROVAL ( #24, ( #269 ) ) ;
#115 = PRODUCT_DEFINITION ( 'UNKNOWN', '', #94, #153 ) ;
#116 = AXIS2_PLACEMENT_3D ( 'NONE', #206, #313, #264 ) ;
#117 = DATE_TIME_ROLE ( 'classification_date' ) ;
#118 = DIRECTION ( 'NONE',  ( 1.000000000000000000, 0.000000000000000000, 0.000000000000000000 ) ) ;
#119 = DIRECTION ( 'NONE',  ( -1.000000000000000000, -0.000000000000000000, -0.000000000000000000 ) ) ;
#120 = ADVANCED_FACE ( 'NONE', ( #121 ), #149, .F. ) ;
#121 = FACE_OUTER_BOUND ( 'NONE', #238, .T. ) ;
#122 = AXIS2_PLACEMENT_3D ( 'NONE', #312, #3, #22 ) ;
#123 = LINE ( 'NONE', #148, #90 ) ;
#124 = CARTESIAN_POINT ( 'NONE',  ( -3.000000000000000444, 1.224646799147353256E-15, -10.00000000000000000 ) ) ;
#125 = FACE_OUTER_BOUND ( 'NONE', #250, .T. ) ;
#126 = VECTOR ( 'NONE', #163, 1000.000000000000000 ) ;
#127 = CARTESIAN_POINT ( 'NONE',  ( 2.999999999999999112, 0.000000000000000000, 10.00000000000000000 ) ) ;
#128 = ADVANCED_FACE ( 'NONE', ( #95 ), #200, .F. ) ;
#129 = CALENDAR_DATE ( 2020, 24, 12 ) ;
#130 = EDGE_LOOP ( 'NONE', ( #71, #213, #56, #190 ) ) ;
#131 = CARTESIAN_POINT ( 'NONE',  ( 2.999999999999999112, 0.000000000000000000, 0.000000000000000000 ) ) ;
#132 = VERTEX_POINT ( 'NONE', #70 ) ;
#133 = ORIENTED_EDGE ( 'NONE', *, *, #64, .F. ) ;
#134 = AXIS2_PLACEMENT_3D ( 'NONE', #179, #180, #52 ) ;
#135 = VECTOR ( 'NONE', #201, 1000.000000000000000 ) ;
#136 = FACE_OUTER_BOUND ( 'NONE', #130, .T. ) ;
#137 = EDGE_LOOP ( 'NONE', ( #83, #85 ) ) ;
#138 = ADVANCED_FACE ( 'NONE', ( #252, #174 ), #301, .F. ) ;
#139 = MECHANICAL_CONTEXT ( 'NONE', #276, 'mechanical' ) ;
#140 = VERTEX_POINT ( 'NONE', #333 ) ;
#141 = APPROVAL_STATUS ( 'not_yet_approved' ) ;
#142 = APPROVAL_PERSON_ORGANIZATION ( #187, #75, #185 ) ;
#143 = AXIS2_PLACEMENT_3D ( 'NONE', #93, #277, #331 ) ;
#144 = COORDINATED_UNIVERSAL_TIME_OFFSET ( 8, 0, .AHEAD. ) ;
#145 = AXIS2_PLACEMENT_3D ( 'NONE', #335, #310, #283 ) ;
#146 = VERTEX_POINT ( 'NONE', #124 ) ;
#147 = CARTESIAN_POINT ( 'NONE',  ( 3.000000000000000000, 0.000000000000000000, 0.000000000000000000 ) ) ;
#148 = CARTESIAN_POINT ( 'NONE',  ( -1.614212418857619014, 0.000000000000000000, 10.00000000000000000 ) ) ;
#149 = PLANE ( 'NONE',  #266 ) ;
#150 = EDGE_CURVE ( 'NONE', #208, #286, #225, .T. ) ;
#151 = DIRECTION ( 'NONE',  ( 0.000000000000000000, 0.000000000000000000, 1.000000000000000000 ) ) ;
#152 = FACE_OUTER_BOUND ( 'NONE', #107, .T. ) ;
#153 = DESIGN_CONTEXT ( 'detailed design', #57, 'design' ) ;
#154 = CARTESIAN_POINT ( 'NONE',  ( 3.000000000000000000, 0.000000000000000000, 0.000000000000000000 ) ) ;
#155 = ORGANIZATION ( 'UNSPECIFIED', 'UNSPECIFIED', '' ) ;
#156 = CIRCLE ( 'NONE', #309, 12.69999999999999929 ) ;
#157 = CARTESIAN_POINT ( 'NONE',  ( 2.999999999999999112, 0.000000000000000000, 0.000000000000000000 ) ) ;
#158 = DIRECTION ( 'NONE',  ( 1.000000000000000000, 0.000000000000000000, 0.000000000000000000 ) ) ;
#159 = ORIENTED_EDGE ( 'NONE', *, *, #273, .F. ) ;
#160 = FACE_OUTER_BOUND ( 'NONE', #5, .T. ) ;
#161 = LINE ( 'NONE', #29, #126 ) ;
#162 = VERTEX_POINT ( 'NONE', #91 ) ;
#163 = DIRECTION ( 'NONE',  ( -1.000000000000000000, -0.000000000000000000, -0.000000000000000000 ) ) ;
#164 = CIRCLE ( 'NONE', #122, 10.00000000000000000 ) ;
#165 = ORIENTED_EDGE ( 'NONE', *, *, #254, .F. ) ;
#166 = CIRCLE ( 'NONE', #143, 10.00000000000000000 ) ;
#167 = APPROVAL_STATUS ( 'not_yet_approved' ) ;
#168 = ORIENTED_EDGE ( 'NONE', *, *, #298, .T. ) ;
#169 = EDGE_CURVE ( 'NONE', #140, #162, #300, .T. ) ;
#170 = CC_DESIGN_PERSON_AND_ORGANIZATION_ASSIGNMENT ( #86, #297, ( #94 ) ) ;
#171 = DIRECTION ( 'NONE',  ( -0.000000000000000000, 0.000000000000000000, 1.000000000000000000 ) ) ;
#172 = DIRECTION ( 'NONE',  ( -1.000000000000000000, -0.000000000000000000, -0.000000000000000000 ) ) ;
#173 = DIRECTION ( 'NONE',  ( -1.000000000000000000, -0.000000000000000000, -0.000000000000000000 ) ) ;
#174 = FACE_OUTER_BOUND ( 'NONE', #295, .T. ) ;
#175 = FACE_OUTER_BOUND ( 'NONE', #111, .T. ) ;
#176 = AXIS2_PLACEMENT_3D ( 'NONE', #226, #263, #228 ) ;
#177 = CIRCLE ( 'NONE', #32, 12.69999999999999929 ) ;
#178 = DIRECTION ( 'NONE',  ( 0.000000000000000000, 0.000000000000000000, 1.000000000000000000 ) ) ;
#179 = CARTESIAN_POINT ( 'NONE',  ( -1.614212418857619014, 0.000000000000000000, 0.000000000000000000 ) ) ;
#180 = DIRECTION ( 'NONE',  ( -1.000000000000000000, -0.000000000000000000, -0.000000000000000000 ) ) ;
#181 = APPROVAL_DATE_TIME ( #314, #75 ) ;
#182 = ORIENTED_EDGE ( 'NONE', *, *, #169, .T. ) ;
#183 = DIRECTION ( 'NONE',  ( 0.000000000000000000, 0.000000000000000000, -1.000000000000000000 ) ) ;
#184 = EDGE_CURVE ( 'NONE', #28, #132, #231, .T. ) ;
#185 = APPROVAL_ROLE ( '' ) ;
#186 = EDGE_LOOP ( 'NONE', ( #54, #236, #33, #262 ) ) ;
#187 = PERSON_AND_ORGANIZATION ( #37, #155 ) ;
#188 = ORIENTED_EDGE ( 'NONE', *, *, #184, .F. ) ;
#189 = CALENDAR_DATE ( 2020, 24, 12 ) ;
#190 = ORIENTED_EDGE ( 'NONE', *, *, #218, .T. ) ;
#191 = PERSON_AND_ORGANIZATION_ROLE ( 'creator' ) ;
#192 = MANIFOLD_SOLID_BREP ( 'Ðý×', #304 ) ;
#193 = CIRCLE ( 'NONE', #48, 10.00000000000000000 ) ;
#194 = DATE_AND_TIME ( #13, #96 ) ;
#195 = CARTESIAN_POINT ( 'NONE',  ( -1.614212418857619014, 0.000000000000000000, 0.000000000000000000 ) ) ;
#196 = CARTESIAN_POINT ( 'NONE',  ( -2.500000000000000444, 0.000000000000000000, 0.000000000000000000 ) ) ;
#197 = LOCAL_TIME ( 9, 50, 39.00000000000000000, #55 ) ;
#198 = FACE_OUTER_BOUND ( 'NONE', #186, .T. ) ;
#199 = AXIS2_PLACEMENT_3D ( 'NONE', #92, #224, #17 ) ;
#200 = CYLINDRICAL_SURFACE ( 'NONE', #35, 10.00000000000000000 ) ;
#201 = DIRECTION ( 'NONE',  ( -1.000000000000000000, -0.000000000000000000, -0.000000000000000000 ) ) ;
#202 = CYLINDRICAL_SURFACE ( 'NONE', #145, 12.69999999999999929 ) ;
#203 = VECTOR ( 'NONE', #14, 1000.000000000000000 ) ;
#204 = AXIS2_PLACEMENT_3D ( 'NONE', #221, #172, #69 ) ;
#205 = CARTESIAN_POINT ( 'NONE',  ( 2.500000000000000888, 0.000000000000000000, 10.00000000000000000 ) ) ;
#206 = CARTESIAN_POINT ( 'NONE',  ( -3.000000000000000000, 0.000000000000000000, 0.000000000000000000 ) ) ;
#207 = PERSON_AND_ORGANIZATION ( #37, #155 ) ;
#208 = VERTEX_POINT ( 'NONE', #256 ) ;
#209 = CARTESIAN_POINT ( 'NONE',  ( -3.000000000000000444, 0.000000000000000000, 0.000000000000000000 ) ) ;
#210 = PERSON_AND_ORGANIZATION ( #37, #155 ) ;
#211 = EDGE_LOOP ( 'NONE', ( #104, #165 ) ) ;
#212 = ORIENTED_EDGE ( 'NONE', *, *, #99, .T. ) ;
#213 = ORIENTED_EDGE ( 'NONE', *, *, #62, .T. ) ;
#214 = AXIS2_PLACEMENT_3D ( 'NONE', #209, #334, #49 ) ;
#215 = APPROVAL_ROLE ( '' ) ;
#216 = LOCAL_TIME ( 9, 50, 39.00000000000000000, #11 ) ;
#217 = AXIS2_PLACEMENT_3D ( 'NONE', #80, #101, #257 ) ;
#218 = EDGE_CURVE ( 'NONE', #61, #146, #164, .T. ) ;
#219 = DATE_AND_TIME ( #244, #216 ) ;
#220 = DIRECTION ( 'NONE',  ( -1.000000000000000000, -0.000000000000000000, -0.000000000000000000 ) ) ;
#221 = CARTESIAN_POINT ( 'NONE',  ( -1.614212418857619014, 0.000000000000000000, 0.000000000000000000 ) ) ;
#222 = CC_DESIGN_DATE_AND_TIME_ASSIGNMENT ( #293, #60, ( #115 ) ) ;
#223 = CARTESIAN_POINT ( 'NONE',  ( 2.500000000000000444, 10.00000000000000000, 0.000000000000000000 ) ) ;
#224 = DIRECTION ( 'NONE',  ( -1.000000000000000000, -0.000000000000000000, -0.000000000000000000 ) ) ;
#225 = LINE ( 'NONE', #39, #43 ) ;
#226 = CARTESIAN_POINT ( 'NONE',  ( -2.500000000000000444, 10.00000000000000000, 0.000000000000000000 ) ) ;
#227 = PRODUCT_RELATED_PRODUCT_CATEGORY ( 'detail', '', ( #255 ) ) ;
#228 = DIRECTION ( 'NONE',  ( 0.000000000000000000, 0.000000000000000000, -1.000000000000000000 ) ) ;
#229 =( LENGTH_UNIT ( ) NAMED_UNIT ( * ) SI_UNIT ( .MILLI., .METRE. ) );
#230 = EDGE_CURVE ( 'NONE', #268, #208, #72, .T. ) ;
#231 = LINE ( 'NONE', #259, #58 ) ;
#232 = CARTESIAN_POINT ( 'NONE',  ( -1.614212418857619014, 0.000000000000000000, 0.000000000000000000 ) ) ;
#233 = VERTEX_POINT ( 'NONE', #205 ) ;
#234 = UNCERTAINTY_MEASURE_WITH_UNIT (LENGTH_MEASURE( 1.000000000000000082E-05 ), #229, 'distance_accuracy_value', 'NONE');
#235 = AXIS2_PLACEMENT_3D ( 'NONE', #131, #316, #105 ) ;
#236 = ORIENTED_EDGE ( 'NONE', *, *, #230, .F. ) ;
#237 = DIRECTION ( 'NONE',  ( -1.000000000000000000, -0.000000000000000000, -0.000000000000000000 ) ) ;
#238 = EDGE_LOOP ( 'NONE', ( #133, #258 ) ) ;
#239 = APPROVAL_DATE_TIME ( #288, #112 ) ;
#240 = ORIENTED_EDGE ( 'NONE', *, *, #298, .F. ) ;
#241 = EDGE_CURVE ( 'NONE', #315, #291, #308, .T. ) ;
#242 = PERSON_AND_ORGANIZATION ( #37, #155 ) ;
#243 = LOCAL_TIME ( 9, 50, 39.00000000000000000, #267 ) ;
#244 = CALENDAR_DATE ( 2020, 24, 12 ) ;
#245 = LOCAL_TIME ( 9, 50, 39.00000000000000000, #261 ) ;
#246 = ADVANCED_FACE ( 'NONE', ( #287, #281 ), #73, .F. ) ;
#247 = ADVANCED_FACE ( 'NONE', ( #125 ), #45, .T. ) ;
#248 = AXIS2_PLACEMENT_3D ( 'NONE', #232, #237, #82 ) ;
#249 = DIRECTION ( 'NONE',  ( -1.000000000000000000, -0.000000000000000000, -0.000000000000000000 ) ) ;
#250 = EDGE_LOOP ( 'NONE', ( #51, #2, #240, #79 ) ) ;
#251 = CARTESIAN_POINT ( 'NONE',  ( -1.614212418857619014, 1.224646799147353256E-15, -10.00000000000000000 ) ) ;
#252 = FACE_BOUND ( 'NONE', #211, .T. ) ;
#253 = EDGE_LOOP ( 'NONE', ( #26, #7 ) ) ;
#254 = EDGE_CURVE ( 'NONE', #146, #61, #292, .T. ) ;
#255 = PRODUCT ( 'QB-CTZQWP-20-852-M', 'QB-CTZQWP-20-852-M', '', ( #139 ) ) ;
#256 = CARTESIAN_POINT ( 'NONE',  ( 2.999999999999999112, 1.224646799147353256E-15, -10.00000000000000000 ) ) ;
#257 = DIRECTION ( 'NONE',  ( -0.000000000000000000, 0.000000000000000000, 1.000000000000000000 ) ) ;
#258 = ORIENTED_EDGE ( 'NONE', *, *, #16, .F. ) ;
#259 = CARTESIAN_POINT ( 'NONE',  ( -1.614212418857619014, 1.555301434917138433E-15, -12.69999999999999929 ) ) ;
#260 = ADVANCED_FACE ( 'NONE', ( #160 ), #284, .F. ) ;
#261 = COORDINATED_UNIVERSAL_TIME_OFFSET ( 8, 0, .AHEAD. ) ;
#262 = ORIENTED_EDGE ( 'NONE', *, *, #64, .T. ) ;
#263 = DIRECTION ( 'NONE',  ( 1.000000000000000000, 0.000000000000000000, 0.000000000000000000 ) ) ;
#264 = DIRECTION ( 'NONE',  ( 0.000000000000000000, 0.000000000000000000, 1.000000000000000000 ) ) ;
#265 = ORIENTED_EDGE ( 'NONE', *, *, #294, .T. ) ;
#266 = AXIS2_PLACEMENT_3D ( 'NONE', #223, #329, #171 ) ;
#267 = COORDINATED_UNIVERSAL_TIME_OFFSET ( 8, 0, .AHEAD. ) ;
#268 = VERTEX_POINT ( 'NONE', #127 ) ;
#269 = SECURITY_CLASSIFICATION ( '', '', #63 ) ;
#270 = APPROVAL_ROLE ( '' ) ;
#271 = ORIENTED_EDGE ( 'NONE', *, *, #254, .T. ) ;
#272 = CARTESIAN_POINT ( 'NONE',  ( -1.614212418857619014, 0.000000000000000000, 12.69999999999999929 ) ) ;
#273 = EDGE_CURVE ( 'NONE', #208, #268, #326, .T. ) ;
#274 = CARTESIAN_POINT ( 'NONE',  ( -1.614212418857619014, 0.000000000000000000, 0.000000000000000000 ) ) ;
#275 = CARTESIAN_POINT ( 'NONE',  ( 3.000000000000000000, 1.555301434917138433E-15, -12.69999999999999929 ) ) ;
#276 = APPLICATION_CONTEXT ( 'configuration controlled 3d designs of mechanical parts and assemblies' ) ;
#277 = DIRECTION ( 'NONE',  ( -1.000000000000000000, -0.000000000000000000, -0.000000000000000000 ) ) ;
#278 = AXIS2_PLACEMENT_3D ( 'NONE', #76, #78, #183 ) ;
#279 = CYLINDRICAL_SURFACE ( 'NONE', #59, 10.00000000000000000 ) ;
#280 = PRODUCT_DEFINITION_SHAPE ( 'NONE', 'NONE',  #115 ) ;
#281 = FACE_BOUND ( 'NONE', #253, .T. ) ;
#282 = ADVANCED_FACE ( 'NONE', ( #152 ), #202, .T. ) ;
#283 = DIRECTION ( 'NONE',  ( 0.000000000000000000, 0.000000000000000000, 1.000000000000000000 ) ) ;
#284 = PLANE ( 'NONE',  #176 ) ;
#285 = CIRCLE ( 'NONE', #10, 12.69999999999999929 ) ;
#286 = VERTEX_POINT ( 'NONE', #1 ) ;
#287 = FACE_OUTER_BOUND ( 'NONE', #137, .T. ) ;
#288 = DATE_AND_TIME ( #325, #245 ) ;
#289 = ORIENTED_EDGE ( 'NONE', *, *, #241, .T. ) ;
#290 = APPROVAL_STATUS ( 'not_yet_approved' ) ;
#291 = VERTEX_POINT ( 'NONE', #46 ) ;
#292 = CIRCLE ( 'NONE', #214, 10.00000000000000000 ) ;
#293 = DATE_AND_TIME ( #189, #243 ) ;
#294 = EDGE_CURVE ( 'NONE', #28, #140, #285, .T. ) ;
#295 = EDGE_LOOP ( 'NONE', ( #168, #318 ) ) ;
#296 = CC_DESIGN_SECURITY_CLASSIFICATION ( #269, ( #94 ) ) ;
#297 = PERSON_AND_ORGANIZATION_ROLE ( 'design_supplier' ) ;
#298 = EDGE_CURVE ( 'NONE', #162, #132, #31, .T. ) ;
#299 = CIRCLE ( 'NONE', #199, 10.00000000000000000 ) ;
#300 = LINE ( 'NONE', #272, #203 ) ;
#301 = PLANE ( 'NONE',  #100 ) ;
#302 = AXIS2_PLACEMENT_3D ( 'NONE', #6, #84, #158 ) ;
#303 = CC_DESIGN_PERSON_AND_ORGANIZATION_ASSIGNMENT ( #323, #191, ( #115 ) ) ;
#304 = CLOSED_SHELL ( 'NONE', ( #247, #128, #87, #120, #88, #322, #138, #282, #246, #260 ) ) ;
#305 = DIRECTION ( 'NONE',  ( 0.000000000000000000, 0.000000000000000000, -1.000000000000000000 ) ) ;
#306 = DIRECTION ( 'NONE',  ( -1.000000000000000000, -0.000000000000000000, -0.000000000000000000 ) ) ;
#307 = DIRECTION ( 'NONE',  ( 0.000000000000000000, 0.000000000000000000, -1.000000000000000000 ) ) ;
#308 = CIRCLE ( 'NONE', #278, 10.00000000000000000 ) ;
#309 = AXIS2_PLACEMENT_3D ( 'NONE', #147, #66, #330 ) ;
#310 = DIRECTION ( 'NONE',  ( -1.000000000000000000, -0.000000000000000000, -0.000000000000000000 ) ) ;
#311 = APPROVAL_PERSON_ORGANIZATION ( #242, #24, #215 ) ;
#312 = CARTESIAN_POINT ( 'NONE',  ( -3.000000000000000444, 0.000000000000000000, 0.000000000000000000 ) ) ;
#313 = DIRECTION ( 'NONE',  ( -1.000000000000000000, -0.000000000000000000, -0.000000000000000000 ) ) ;
#314 = DATE_AND_TIME ( #129, #197 ) ;
#315 = VERTEX_POINT ( 'NONE', #50 ) ;
#316 = DIRECTION ( 'NONE',  ( -1.000000000000000000, -0.000000000000000000, -0.000000000000000000 ) ) ;
#317 = PERSON_AND_ORGANIZATION ( #37, #155 ) ;
#318 = ORIENTED_EDGE ( 'NONE', *, *, #102, .T. ) ;
#319 = PERSON_AND_ORGANIZATION_ROLE ( 'design_owner' ) ;
#320 = ADVANCED_BREP_SHAPE_REPRESENTATION ( 'QB-CTZQWP-20-852-M', ( #192, #302 ), #18 ) ;
#321 = ORIENTED_EDGE ( 'NONE', *, *, #150, .T. ) ;
#322 = ADVANCED_FACE ( 'NONE', ( #136 ), #110, .F. ) ;
#323 = PERSON_AND_ORGANIZATION ( #37, #155 ) ;
#324 = ORIENTED_EDGE ( 'NONE', *, *, #102, .F. ) ;
#325 = CALENDAR_DATE ( 2020, 24, 12 ) ;
#326 = CIRCLE ( 'NONE', #67, 10.00000000000000000 ) ;
#327 = EDGE_CURVE ( 'NONE', #315, #61, #161, .T. ) ;
#328 = APPROVAL_DATE_TIME ( #219, #24 ) ;
#329 = DIRECTION ( 'NONE',  ( -1.000000000000000000, 0.000000000000000000, -0.000000000000000000 ) ) ;
#330 = DIRECTION ( 'NONE',  ( 0.000000000000000000, 0.000000000000000000, 1.000000000000000000 ) ) ;
#331 = DIRECTION ( 'NONE',  ( 0.000000000000000000, 0.000000000000000000, 1.000000000000000000 ) ) ;
#332 = CC_DESIGN_PERSON_AND_ORGANIZATION_ASSIGNMENT ( #317, #53, ( #269 ) ) ;
#333 = CARTESIAN_POINT ( 'NONE',  ( 3.000000000000000000, 0.000000000000000000, 12.69999999999999929 ) ) ;
#334 = DIRECTION ( 'NONE',  ( -1.000000000000000000, -0.000000000000000000, -0.000000000000000000 ) ) ;
#335 = CARTESIAN_POINT ( 'NONE',  ( -1.614212418857619014, 0.000000000000000000, 0.000000000000000000 ) ) ;
ENDSEC;
END-ISO-10303-21;
